当前位置:主页>电吉他>电吉他教程>

摇滚金属教学

来源:网络  作者:佚名  时间:2021-04-28  

在第一课中,我们要学习小调音阶(Minor scale)。在重金属音乐中,小调音阶很常用,事实上在任何类型的音乐中,小调音阶都很有用,因此,如果你不是很喜欢重金属,在这节课程中也照样能学到一些东西。小调音阶听上去色彩暗淡,与大调相比,小调感觉更悲伤,更情绪化。

重金属音乐差不多有95%的歌曲都是小调的,或是半音调式(Chromatic Key)。也许你已经知道半音调式了,简单说就是吉他指板上的所有音都可以使用的音阶调式,半音音阶由十二个音组成。我们可以把小调音阶看作是半音音阶的一个子集,而小调五声音阶是小调音阶的一个子集。小调五声音阶是布鲁斯音乐中最常使用的一个音阶,布鲁斯是重金属的一个重要根源,重金属早期的一些雏形乐队象Led Zepplin所演奏的音乐大多源自摇滚布鲁斯。
摇滚金属教学

下面是一个自然小调音阶

      全    半    全     全     半    全     全
|   |   |   |   |   |   |   |   |   |   |   |   |   |
| 1 |   | 2 | 3 |   | 4 |   | 5 | 6 |   | 7 |   | 1 |
|   |   |   |   |   |   |   |   |   |   |   |   |   |
(根音)                                          (根音)
让我们用G调来举个例子,首先我们先写出G半音音阶的所有音:

G - Ab - A - Bb - B - C - Db - D - Eb - E - F - Gb - G

请记住,带降号(b)的音表示在钢琴上的黑键,而在吉他上,G半音音阶就是以G音开始的十二个连续的音品。

现在我们挑选出组成G小调音阶的音:

G - - A - Bb - - C - - D - Eb - - F - - G

这就是一个G自然小调音阶,在吉他指板上弹奏:

     G  A  Bb C  D  Eb F  G  F  Eb D  C  Bb A  G
E|---------------------------------------------------|
B|---------------------------------------------------|
G|---------------------------------------------------|
D|---------------------------------------------------|
A|---------------------------------------------------|
E|---3--5--6--8--10-11-13-15-13-11-10-8--6--5--3-----|
下面是较容易弹奏的方式,在多根弦上同一把位演奏:


     G  A  Bb C  D  Eb F  G  F  Eb D  C  Bb A  G
E|---------------------------------------------------|
B|---------------------------------------------------|
G|---------------------------------------------------|
D|---------------------3--5--3-----------------------|
A|------------3--5--6-----------6--5--3--------------|
E|---3--5--6-----------------------------6--5--3-----|
下面是在G小调中的一个licks:
     G  D  G   A Bb  D Bb  A       G  D  G   A Bb  D Bb  A
E|-----10-----------10---------|-----10-----------10---------|
B|---8-----8--10-11----11-10---|---8-----8--10-11----11-10---|
G|-----------------------------|-----------------------------|
D|-----------------------------|-----------------------------|
A|-----------------------------|-----------------------------|
E|-----------------------------|-----------------------------|

当你熟悉了小调音阶的指型模块后,你可以换到其它调中练习弹奏,只要将指型模块在吉他指板上移动到其它把位弹奏即可。下面是一些在F#小调中的licks:

今天我们学习重力和弦(power chord)。重力和弦一般只包括根音和5音,根音的音名就是和弦的名称。之所以叫重力和弦,是因为它的音色沉重有力,特别是加上失真效果之后。
上次的课中我们学到了半音和全音音程,在这次课的开始我们要学习一个新的音程:纯五度。一个纯五度等于七个半音的和,也就是说在吉他指板上,两个音程为纯五度的音在同一根弦上相距7个品位。这样的两个音就可以组成最基本的重力和弦。既然是和弦,就需要在两根弦上同时奏响,因此我们要找到纯五度的两个音在相邻两根弦上的指型。下面就是纯五度或说最基本的重力和弦的例子:

E|----------------|
B|----------------|
G|----------------|
D|--------5-------|
A|--------3-------|
E|----------------|

在A弦3品上的C音是根音,C的五度音是G,它在D弦5品上。这是一个C重力和弦或叫做C5。记住这个和弦指型(食指按根音,无名指按5音,有人是用小指按5音),在低音四根弦上你可来回移动它,想弹奏什么和弦,只要找到根音的位置就行了。比如你要弹G和弦,首先找到根音G在E弦3品,因此只要把指型移到五、六弦上第三把位即可:
E|----------------|
B|----------------|
G|----------------|
D|----------------|
A|--------5-------|
E|--------3-------|

下面是一些重力和弦的变异:
E|---------------|---------------|---------------|
B|---------------|---------------|---------------|
G|-------5-------|-------5-------|---------------|
D|-------5-------|-------5-------|---------------|
A|-------3-------|-------3-------|-------3-------|
E|---------------|-------3-------|-------3-------|

在第一个例子里,我们在5音上面又加了一个根音,这也一种非常普遍的重力和弦型。后加的这个高音使和弦听起来更明亮了一点。在第二个例子中,除了高音的根音外,又加了一个低八度的5音。相比之下,两个音的重力和弦是最容易移动的。
第三个例子中,去掉了例二中的两个高音,只剩下两个低音,但在这两个音中5音是低音。这是另外一个很重要的重力和弦指型,它可叫做"转位"重力和弦,你可以把它看成是颠倒过来的重力和弦。
现在我们将已学到的重力和弦知识与上节课所讲的小调音阶结合起来,写出E小调中的所有重力和弦:

    I  II  iii  IV  V  vi  vii  I
E|-------------------------------------------------|
B|-------------------------------------------------|
G|-----------------------------------2----4--------|
D|--------------------2----4----5----0----2--------|
A|-----2----4----5----0----2----3------------------|
E|-----0----2----3---------------------------------|

在六线谱上方的罗马数字代表着和弦的级数。同一个1-5重力和弦在指板的不同位置都能按出来,比如上面开头和结尾的两个一级和弦(E),当然不同位置弹奏出的和弦,虽然有的音高一样,但音色会有很大不同。